ISO-10303-21;
HEADER;
FILE_DESCRIPTION (( 'STEP AP214' ),
    '1' );
FILE_NAME ('GCC-411205.STEP',
    '2020-02-15T10:10:25',
    ( 'China' ),
    ( 'Microsoft' ),
    'SwSTEP 2.0',
    'SolidWorks 2018',
    '' );
FILE_SCHEMA (( 'AUTOMOTIVE_DESIGN' ));
ENDSEC;

DATA;
#1 = EDGE_LOOP ( 'NONE', ( #11, #117 ) ) ;
#2 = CARTESIAN_POINT ( 'NONE',  ( 0.0000000000000000000, 0.0000000000000000000, 6.000000000000000000 ) ) ;
#3 = STYLED_ITEM ( 'NONE', ( #139 ), #115 ) ;
#4 = DIRECTION ( 'NONE',  ( 0.0000000000000000000, 0.03489949670250874075, -0.9993908270190954291 ) ) ;
#5 = DIRECTION ( 'NONE',  ( 1.000000000000000000, 0.0000000000000000000, 0.0000000000000000000 ) ) ;
#6 =( NAMED_UNIT ( * ) SI_UNIT ( $, .STERADIAN. ) SOLID_ANGLE_UNIT ( ) );
#7 = PLANE ( 'NONE',  #114 ) ;
#8 = VERTEX_POINT ( 'NONE', #113 ) ;
#9 = AXIS2_PLACEMENT_3D ( 'NONE', #40, #53, #96 ) ;
#10 = ADVANCED_FACE ( 'NONE', ( #66 ), #41, .F. ) ;
#11 = ORIENTED_EDGE ( 'NONE', *, *, #15, .F. ) ;
#12 = PRESENTATION_LAYER_ASSIGNMENT (  '', '', ( #26 ) ) ;
#13 = CARTESIAN_POINT ( 'NONE',  ( -25.39999999999999858, 0.0000000000000000000, 5.113012454909410032 ) ) ;
#14 = CYLINDRICAL_SURFACE ( 'NONE', #61, 25.39999999999999858 ) ;
#15 = EDGE_CURVE ( 'NONE', #78, #8, #35, .T. ) ;
#16 = CARTESIAN_POINT ( 'NONE',  ( 0.0000000000000000000, 0.0000000000000000000, 0.0000000000000000000 ) ) ;
#17 = FACE_OUTER_BOUND ( 'NONE', #102, .T. ) ;
#18 = EDGE_LOOP ( 'NONE', ( #46, #105, #135, #19 ) ) ;
#19 = ORIENTED_EDGE ( 'NONE', *, *, #24, .T. ) ;
#20 = UNCERTAINTY_MEASURE_WITH_UNIT (LENGTH_MEASURE( 1.000000000000000082E-05 ), #119, 'distance_accuracy_value', 'NONE');
#21 = ORIENTED_EDGE ( 'NONE', *, *, #109, .T. ) ;
#22 = LINE ( 'NONE', #57, #138 ) ;
#23 = COLOUR_RGB ( '',0.9411764705882352811, 0.9607843137254902244, 0.9686274509803921573 ) ;
#24 = EDGE_CURVE ( 'NONE', #38, #82, #52, .T. ) ;
#25 =( NAMED_UNIT ( * ) PLANE_ANGLE_UNIT ( ) SI_UNIT ( $, .RADIAN. ) );
#26 = STYLED_ITEM ( 'NONE', ( #65 ), #112 ) ;
#27 = FACE_OUTER_BOUND ( 'NONE', #63, .T. ) ;
#28 = PRESENTATION_LAYER_ASSIGNMENT (  '', '', ( #3 ) ) ;
#29 = PRODUCT ( 'GCC-411205', 'GCC-411205', '', ( #129 ) ) ;
#30 = CIRCLE ( 'NONE', #133, 25.39999999999999858 ) ;
#31 =( GEOMETRIC_REPRESENTATION_CONTEXT ( 3 ) GLOBAL_UNCERTAINTY_ASSIGNED_CONTEXT ( ( #20 ) ) GLOBAL_UNIT_ASSIGNED_CONTEXT ( ( #119, #43, #6 ) ) REPRESENTATION_CONTEXT ( 'NONE', 'WORKASPACE' ) );
#32 = CARTESIAN_POINT ( 'NONE',  ( 0.0000000000000000000, 0.0000000000000000000, 6.000000000000000000 ) ) ;
#33 = UNCERTAINTY_MEASURE_WITH_UNIT (LENGTH_MEASURE( 1.000000000000000082E-05 ), #36, 'distance_accuracy_value', 'NONE');
#34 = CYLINDRICAL_SURFACE ( 'NONE', #50, 25.39999999999999858 ) ;
#35 =( BOUNDED_CURVE ( )  B_SPLINE_CURVE ( 3, ( #13, #39, #100, #79 ),
 .UNSPECIFIED., .F., .F. ) 
 B_SPLINE_CURVE_WITH_KNOTS ( ( 4, 4 ),
 ( 1.570796326794896558, 4.712388980384689674 ),
 .UNSPECIFIED. ) 
 CURVE ( )  GEOMETRIC_REPRESENTATION_ITEM ( )  RATIONAL_B_SPLINE_CURVE ( ( 1.000000000000000000, 0.3333333333333333703, 0.3333333333333333703, 1.000000000000000000 ) ) 
 REPRESENTATION_ITEM ( '' )  );
#36 =( LENGTH_UNIT ( ) NAMED_UNIT ( * ) SI_UNIT ( .MILLI., .METRE. ) );
#37 = PRODUCT_DEFINITION_FORMATION_WITH_SPECIFIED_SOURCE ( 'ÈÎºÎ', '', #29, .NOT_KNOWN. ) ;
#38 = VERTEX_POINT ( 'NONE', #67 ) ;
#39 = CARTESIAN_POINT ( 'NONE',  ( -25.40000000000000924, 50.79999999999999716, 6.886987545090589968 ) ) ;
#40 = CARTESIAN_POINT ( 'NONE',  ( 0.0000000000000000000, 0.0000000000000000000, 0.0000000000000000000 ) ) ;
#41 = PLANE ( 'NONE',  #85 ) ;
#42 = ORIENTED_EDGE ( 'NONE', *, *, #24, .F. ) ;
#43 =( NAMED_UNIT ( * ) PLANE_ANGLE_UNIT ( ) SI_UNIT ( $, .RADIAN. ) );
#44 = PRODUCT_DEFINITION ( 'Î´Öª', '', #37, #51 ) ;
#45 = SURFACE_STYLE_USAGE ( .BOTH. , #87 ) ;
#46 = ORIENTED_EDGE ( 'NONE', *, *, #136, .F. ) ;
#47 = ADVANCED_FACE ( 'NONE', ( #130 ), #34, .T. ) ;
#48 = APPLICATION_PROTOCOL_DEFINITION ( 'draft international standard', 'automotive_design', 1998, #74 ) ;
#49 = ORIENTED_EDGE ( 'NONE', *, *, #95, .F. ) ;
#50 = AXIS2_PLACEMENT_3D ( 'NONE', #2, #110, #123 ) ;
#51 = PRODUCT_DEFINITION_CONTEXT ( 'detailed design', #74, 'design' ) ;
#52 = CIRCLE ( 'NONE', #9, 25.39999999999999858 ) ;
#53 = DIRECTION ( 'NONE',  ( 0.0000000000000000000, 0.0000000000000000000, 1.000000000000000000 ) ) ;
#54 = DIRECTION ( 'NONE',  ( -0.0000000000000000000, -0.0000000000000000000, -1.000000000000000000 ) ) ;
#55 = AXIS2_PLACEMENT_3D ( 'NONE', #58, #94, #120 ) ;
#56 = CARTESIAN_POINT ( 'NONE',  ( -50.00000000000000000, -25.43167759485687185, 4.224918703830770284 ) ) ;
#57 = CARTESIAN_POINT ( 'NONE',  ( 25.39999999999999858, 3.110602869834276865E-15, 6.000000000000000000 ) ) ;
#58 = CARTESIAN_POINT ( 'NONE',  ( 0.0000000000000000000, 0.0000000000000000000, 0.0000000000000000000 ) ) ;
#59 = APPLICATION_PROTOCOL_DEFINITION ( 'draft international standard', 'automotive_design', 1998, #118 ) ;
#60 = SURFACE_SIDE_STYLE ('',( #121 ) ) ;
#61 = AXIS2_PLACEMENT_3D ( 'NONE', #32, #54, #98 ) ;
#62 = ADVANCED_FACE ( 'NONE', ( #27 ), #14, .T. ) ;
#63 = EDGE_LOOP ( 'NONE', ( #107, #93, #21, #49 ) ) ;
#64 = PRODUCT_RELATED_PRODUCT_CATEGORY ( 'part', '', ( #29 ) ) ;
#65 = PRESENTATION_STYLE_ASSIGNMENT (( #45 ) ) ;
#66 = FACE_OUTER_BOUND ( 'NONE', #1, .T. ) ;
#67 = CARTESIAN_POINT ( 'NONE',  ( -25.39999999999999858, 0.0000000000000000000, 0.0000000000000000000 ) ) ;
#68 =( NAMED_UNIT ( * ) PLANE_ANGLE_UNIT ( ) SI_UNIT ( $, .RADIAN. ) );
#69 = CARTESIAN_POINT ( 'NONE',  ( 0.0000000000000000000, 0.0000000000000000000, 0.0000000000000000000 ) ) ;
#70 = FILL_AREA_STYLE ('',( #106 ) ) ;
#71 =( GEOMETRIC_REPRESENTATION_CONTEXT ( 3 ) GLOBAL_UNCERTAINTY_ASSIGNED_CONTEXT ( ( #140 ) ) GLOBAL_UNIT_ASSIGNED_CONTEXT ( ( #81, #68, #90 ) ) REPRESENTATION_CONTEXT ( 'NONE', 'WORKASPACE' ) );
#72 = FILL_AREA_STYLE_COLOUR ( '', #23 ) ;
#73 = EDGE_CURVE ( 'NONE', #8, #78, #125, .T. ) ;
#74 = APPLICATION_CONTEXT ( 'automotive_design' ) ;
#75 = CLOSED_SHELL ( 'NONE', ( #62, #47, #131, #10 ) ) ;
#76 = PRODUCT_DEFINITION_SHAPE ( 'NONE', 'NONE',  #44 ) ;
#77 = ORIENTED_EDGE ( 'NONE', *, *, #109, .F. ) ;
#78 = VERTEX_POINT ( 'NONE', #137 ) ;
#79 = CARTESIAN_POINT ( 'NONE',  ( 25.39999999999999858, 3.110602869834276865E-15, 5.113012454909410032 ) ) ;
#80 = CARTESIAN_POINT ( 'NONE',  ( 25.39999999999999858, 3.110602869834276865E-15, 5.113012454909410032 ) ) ;
#81 =( LENGTH_UNIT ( ) NAMED_UNIT ( * ) SI_UNIT ( .MILLI., .METRE. ) );
#82 = VERTEX_POINT ( 'NONE', #83 ) ;
#83 = CARTESIAN_POINT ( 'NONE',  ( 25.39999999999999858, 3.110602869834276865E-15, 0.0000000000000000000 ) ) ;
#84 = FILL_AREA_STYLE ('',( #72 ) ) ;
#85 = AXIS2_PLACEMENT_3D ( 'NONE', #56, #4, #124 ) ;
#86 = MECHANICAL_DESIGN_GEOMETRIC_PRESENTATION_REPRESENTATION (  '', ( #26 ), #99 ) ;
#87 = SURFACE_SIDE_STYLE ('',( #108 ) ) ;
#88 = VECTOR ( 'NONE', #101, 1000.000000000000000 ) ;
#89 = SURFACE_STYLE_USAGE ( .BOTH. , #60 ) ;
#90 =( NAMED_UNIT ( * ) SI_UNIT ( $, .STERADIAN. ) SOLID_ANGLE_UNIT ( ) );
#91 = DIRECTION ( 'NONE',  ( -0.0000000000000000000, -0.0000000000000000000, -1.000000000000000000 ) ) ;
#92 =( NAMED_UNIT ( * ) SI_UNIT ( $, .STERADIAN. ) SOLID_ANGLE_UNIT ( ) );
#93 = ORIENTED_EDGE ( 'NONE', *, *, #136, .T. ) ;
#94 = DIRECTION ( 'NONE',  ( 0.0000000000000000000, 0.0000000000000000000, 1.000000000000000000 ) ) ;
#95 = EDGE_CURVE ( 'NONE', #78, #38, #132, .T. ) ;
#96 = DIRECTION ( 'NONE',  ( 1.000000000000000000, 0.0000000000000000000, 0.0000000000000000000 ) ) ;
#97 = COLOUR_RGB ( '',0.9411764705882352811, 0.9607843137254902244, 0.9686274509803921573 ) ;
#98 = DIRECTION ( 'NONE',  ( -1.000000000000000000, 0.0000000000000000000, 0.0000000000000000000 ) ) ;
#99 =( GEOMETRIC_REPRESENTATION_CONTEXT ( 3 ) GLOBAL_UNCERTAINTY_ASSIGNED_CONTEXT ( ( #33 ) ) GLOBAL_UNIT_ASSIGNED_CONTEXT ( ( #36, #25, #92 ) ) REPRESENTATION_CONTEXT ( 'NONE', 'WORKASPACE' ) );
#100 = CARTESIAN_POINT ( 'NONE',  ( 25.39999999999998792, 50.79999999999999716, 6.886987545090589968 ) ) ;
#101 = DIRECTION ( 'NONE',  ( -0.0000000000000000000, -0.0000000000000000000, -1.000000000000000000 ) ) ;
#102 = EDGE_LOOP ( 'NONE', ( #42, #77 ) ) ;
#103 = CARTESIAN_POINT ( 'NONE',  ( -25.39999999999999858, 0.0000000000000000000, 6.000000000000000000 ) ) ;
#104 = DIRECTION ( 'NONE',  ( 0.0000000000000000000, 0.0000000000000000000, 1.000000000000000000 ) ) ;
#105 = ORIENTED_EDGE ( 'NONE', *, *, #73, .T. ) ;
#106 = FILL_AREA_STYLE_COLOUR ( '', #97 ) ;
#107 = ORIENTED_EDGE ( 'NONE', *, *, #15, .T. ) ;
#108 = SURFACE_STYLE_FILL_AREA ( #84 ) ;
#109 = EDGE_CURVE ( 'NONE', #82, #38, #30, .T. ) ;
#110 = DIRECTION ( 'NONE',  ( -0.0000000000000000000, -0.0000000000000000000, -1.000000000000000000 ) ) ;
#111 = CARTESIAN_POINT ( 'NONE',  ( 25.40000000000000924, -50.79999999999999716, 3.339037364728229651 ) ) ;
#112 = ADVANCED_BREP_SHAPE_REPRESENTATION ( 'GCC-411205', ( #115, #55 ), #71 ) ;
#113 = CARTESIAN_POINT ( 'NONE',  ( 25.39999999999999858, 3.110602869834276865E-15, 5.113012454909410032 ) ) ;
#114 = AXIS2_PLACEMENT_3D ( 'NONE', #16, #126, #116 ) ;
#115 = MANIFOLD_SOLID_BREP ( 'ÇÐ³ý-À­Éì1', #75 ) ;
#116 = DIRECTION ( 'NONE',  ( 1.000000000000000000, 0.0000000000000000000, -0.0000000000000000000 ) ) ;
#117 = ORIENTED_EDGE ( 'NONE', *, *, #73, .F. ) ;
#118 = APPLICATION_CONTEXT ( 'automotive_design' ) ;
#119 =( LENGTH_UNIT ( ) NAMED_UNIT ( * ) SI_UNIT ( .MILLI., .METRE. ) );
#120 = DIRECTION ( 'NONE',  ( 1.000000000000000000, 0.0000000000000000000, 0.0000000000000000000 ) ) ;
#121 = SURFACE_STYLE_FILL_AREA ( #70 ) ;
#122 = MECHANICAL_DESIGN_GEOMETRIC_PRESENTATION_REPRESENTATION (  '', ( #3 ), #31 ) ;
#123 = DIRECTION ( 'NONE',  ( -1.000000000000000000, 0.0000000000000000000, 0.0000000000000000000 ) ) ;
#124 = DIRECTION ( 'NONE',  ( 0.0000000000000000000, 0.9993908270190954291, 0.03489949670250874075 ) ) ;
#125 =( BOUNDED_CURVE ( )  B_SPLINE_CURVE ( 3, ( #80, #111, #127, #128 ),
 .UNSPECIFIED., .F., .T. ) 
 B_SPLINE_CURVE_WITH_KNOTS ( ( 4, 4 ),
 ( 4.712388980384689674, 7.853981633974482790 ),
 .UNSPECIFIED. ) 
 CURVE ( )  GEOMETRIC_REPRESENTATION_ITEM ( )  RATIONAL_B_SPLINE_CURVE ( ( 1.000000000000000000, 0.3333333333333333703, 0.3333333333333333703, 1.000000000000000000 ) ) 
 REPRESENTATION_ITEM ( '' )  );
#126 = DIRECTION ( 'NONE',  ( 0.0000000000000000000, 0.0000000000000000000, 1.000000000000000000 ) ) ;
#127 = CARTESIAN_POINT ( 'NONE',  ( -25.39999999999999858, -50.79999999999999716, 3.339037364728229651 ) ) ;
#128 = CARTESIAN_POINT ( 'NONE',  ( -25.39999999999999858, 0.0000000000000000000, 5.113012454909410032 ) ) ;
#129 = PRODUCT_CONTEXT ( 'NONE', #118, 'mechanical' ) ;
#130 = FACE_OUTER_BOUND ( 'NONE', #18, .T. ) ;
#131 = ADVANCED_FACE ( 'NONE', ( #17 ), #7, .F. ) ;
#132 = LINE ( 'NONE', #103, #88 ) ;
#133 = AXIS2_PLACEMENT_3D ( 'NONE', #69, #104, #5 ) ;
#134 = SHAPE_DEFINITION_REPRESENTATION ( #76, #112 ) ;
#135 = ORIENTED_EDGE ( 'NONE', *, *, #95, .T. ) ;
#136 = EDGE_CURVE ( 'NONE', #8, #82, #22, .T. ) ;
#137 = CARTESIAN_POINT ( 'NONE',  ( -25.39999999999999858, 0.0000000000000000000, 5.113012454909410032 ) ) ;
#138 = VECTOR ( 'NONE', #91, 1000.000000000000000 ) ;
#139 = PRESENTATION_STYLE_ASSIGNMENT (( #89 ) ) ;
#140 = UNCERTAINTY_MEASURE_WITH_UNIT (LENGTH_MEASURE( 1.000000000000000082E-05 ), #81, 'distance_accuracy_value', 'NONE');
ENDSEC;
END-ISO-10303-21;
